ISO-10303-21;
HEADER;
FILE_DESCRIPTION (( 'STEP AP203' ),
    '1' );
FILE_NAME ('Q-DWWP-R24-12.7-1064-SH-M.STEP',
    '2020-12-22T08:53:38',
    ( '' ),
    ( '' ),
    'SwSTEP 2.0',
    'SolidWorks 2020',
    '' );
FILE_SCHEMA (( 'CONFIG_CONTROL_DESIGN' ));
ENDSEC;

DATA;
#1 = APPROVAL_PERSON_ORGANIZATION ( #275, #215, #56 ) ;
#2 = DIRECTION ( 'NONE',  ( -1.000000000000000000, -0.000000000000000000, -0.000000000000000000 ) ) ;
#3 = ADVANCED_FACE ( 'NONE', ( #179 ), #267, .F. ) ;
#4 = PERSON_AND_ORGANIZATION ( #203, #98 ) ;
#5 = PRODUCT_DEFINITION_FORMATION_WITH_SPECIFIED_SOURCE ( 'ANY', '', #101, .NOT_KNOWN. ) ;
#6 = COORDINATED_UNIVERSAL_TIME_OFFSET ( 8, 0, .AHEAD. ) ;
#7 = DIRECTION ( 'NONE',  ( -1.000000000000000000, -0.000000000000000000, -0.000000000000000000 ) ) ;
#8 = CALENDAR_DATE ( 2020, 22, 12 ) ;
#9 = AXIS2_PLACEMENT_3D ( 'NONE', #305, #67, #53 ) ;
#10 = AXIS2_PLACEMENT_3D ( 'NONE', #211, #117, #41 ) ;
#11 = DIRECTION ( 'NONE',  ( 0.000000000000000000, 0.000000000000000000, 1.000000000000000000 ) ) ;
#12 = ORIENTED_EDGE ( 'NONE', *, *, #300, .F. ) ;
#13 = DIRECTION ( 'NONE',  ( 0.000000000000000000, 0.000000000000000000, 1.000000000000000000 ) ) ;
#14 = DIRECTION ( 'NONE',  ( 0.000000000000000000, 0.000000000000000000, 1.000000000000000000 ) ) ;
#15 = EDGE_LOOP ( 'NONE', ( #148, #327 ) ) ;
#16 = AXIS2_PLACEMENT_3D ( 'NONE', #256, #197, #11 ) ;
#17 = CARTESIAN_POINT ( 'NONE',  ( 1.500000000000000444, 0.000000000000000000, 3.000000000000000000 ) ) ;
#18 = DIRECTION ( 'NONE',  ( 0.000000000000000000, 0.000000000000000000, 1.000000000000000000 ) ) ;
#19 = CARTESIAN_POINT ( 'NONE',  ( -0.5000000000000002220, 3.673940397442059868E-16, -3.000000000000000000 ) ) ;
#20 = PERSON_AND_ORGANIZATION ( #203, #98 ) ;
#21 = CARTESIAN_POINT ( 'NONE',  ( 0.5000000000000002220, 3.000000000000000000, 0.000000000000000000 ) ) ;
#22 = APPLICATION_PROTOCOL_DEFINITION ( 'international standard', 'config_control_design', 1994, #333 ) ;
#23 = CIRCLE ( 'NONE', #247, 3.000000000000000000 ) ;
#24 = LINE ( 'NONE', #210, #43 ) ;
#25 =( NAMED_UNIT ( * ) PLANE_ANGLE_UNIT ( ) SI_UNIT ( $, .RADIAN. ) );
#26 = ADVANCED_FACE ( 'NONE', ( #46, #218 ), #288, .F. ) ;
#27 = ORIENTED_EDGE ( 'NONE', *, *, #140, .F. ) ;
#28 = EDGE_LOOP ( 'NONE', ( #49, #243, #184, #55 ) ) ;
#29 = PLANE ( 'NONE',  #32 ) ;
#30 = ORIENTED_EDGE ( 'NONE', *, *, #131, .T. ) ;
#31 = VECTOR ( 'NONE', #79, 1000.000000000000000 ) ;
#32 = AXIS2_PLACEMENT_3D ( 'NONE', #21, #119, #294 ) ;
#33 = DATE_TIME_ROLE ( 'creation_date' ) ;
#34 = EDGE_CURVE ( 'NONE', #309, #167, #24, .T. ) ;
#35 = PERSON_AND_ORGANIZATION ( #203, #98 ) ;
#36 = CARTESIAN_POINT ( 'NONE',  ( -1.500000000000000000, 0.000000000000000000, 0.000000000000000000 ) ) ;
#37 = EDGE_LOOP ( 'NONE', ( #125, #71 ) ) ;
#38 = LINE ( 'NONE', #298, #48 ) ;
#39 = DIRECTION ( 'NONE',  ( 0.000000000000000000, 0.000000000000000000, 1.000000000000000000 ) ) ;
#40 = AXIS2_PLACEMENT_3D ( 'NONE', #250, #257, #13 ) ;
#41 = DIRECTION ( 'NONE',  ( 1.000000000000000000, 0.000000000000000000, 0.000000000000000000 ) ) ;
#42 = CC_DESIGN_APPROVAL ( #142, ( #190 ) ) ;
#43 = VECTOR ( 'NONE', #123, 1000.000000000000000 ) ;
#44 = CC_DESIGN_PERSON_AND_ORGANIZATION_ASSIGNMENT ( #284, #258, ( #101 ) ) ;
#45 = DIRECTION ( 'NONE',  ( -1.000000000000000000, -0.000000000000000000, -0.000000000000000000 ) ) ;
#46 = FACE_BOUND ( 'NONE', #99, .T. ) ;
#47 = DIRECTION ( 'NONE',  ( 1.000000000000000000, 0.000000000000000000, 0.000000000000000000 ) ) ;
#48 = VECTOR ( 'NONE', #7, 1000.000000000000000 ) ;
#49 = ORIENTED_EDGE ( 'NONE', *, *, #161, .F. ) ;
#50 = EDGE_CURVE ( 'NONE', #68, #54, #153, .T. ) ;
#51 = VERTEX_POINT ( 'NONE', #307 ) ;
#52 = VERTEX_POINT ( 'NONE', #331 ) ;
#53 = DIRECTION ( 'NONE',  ( 0.000000000000000000, 0.000000000000000000, 1.000000000000000000 ) ) ;
#54 = VERTEX_POINT ( 'NONE', #207 ) ;
#55 = ORIENTED_EDGE ( 'NONE', *, *, #131, .F. ) ;
#56 = APPROVAL_ROLE ( '' ) ;
#57 = FACE_OUTER_BOUND ( 'NONE', #185, .T. ) ;
#58 = ORIENTED_EDGE ( 'NONE', *, *, #182, .T. ) ;
#59 = FACE_OUTER_BOUND ( 'NONE', #128, .T. ) ;
#60 = DIRECTION ( 'NONE',  ( 0.000000000000000000, 0.000000000000000000, 1.000000000000000000 ) ) ;
#61 = CARTESIAN_POINT ( 'NONE',  ( 1.500000000000000000, 0.000000000000000000, 0.000000000000000000 ) ) ;
#62 = DIRECTION ( 'NONE',  ( -1.000000000000000000, -0.000000000000000000, -0.000000000000000000 ) ) ;
#63 = CALENDAR_DATE ( 2020, 22, 12 ) ;
#64 = APPROVAL_PERSON_ORGANIZATION ( #35, #142, #316 ) ;
#65 = CARTESIAN_POINT ( 'NONE',  ( -1.614212418857619014, 0.000000000000000000, 0.000000000000000000 ) ) ;
#66 = CARTESIAN_POINT ( 'NONE',  ( -0.5000000000000002220, 0.000000000000000000, 3.000000000000000000 ) ) ;
#67 = DIRECTION ( 'NONE',  ( -1.000000000000000000, -0.000000000000000000, -0.000000000000000000 ) ) ;
#68 = VERTEX_POINT ( 'NONE', #19 ) ;
#69 = DIRECTION ( 'NONE',  ( 0.000000000000000000, 0.000000000000000000, -1.000000000000000000 ) ) ;
#70 = ORIENTED_EDGE ( 'NONE', *, *, #330, .T. ) ;
#71 = ORIENTED_EDGE ( 'NONE', *, *, #231, .F. ) ;
#72 = ORIENTED_EDGE ( 'NONE', *, *, #75, .F. ) ;
#73 = ORIENTED_EDGE ( 'NONE', *, *, #182, .F. ) ;
#74 = APPROVAL ( #89, 'UNSPECIFIED' ) ;
#75 = EDGE_CURVE ( 'NONE', #183, #54, #295, .T. ) ;
#76 = EDGE_CURVE ( 'NONE', #52, #127, #206, .T. ) ;
#77 = DATE_AND_TIME ( #8, #122 ) ;
#78 = AXIS2_PLACEMENT_3D ( 'NONE', #172, #198, #82 ) ;
#79 = DIRECTION ( 'NONE',  ( -1.000000000000000000, -0.000000000000000000, -0.000000000000000000 ) ) ;
#80 = COORDINATED_UNIVERSAL_TIME_OFFSET ( 8, 0, .AHEAD. ) ;
#81 = CC_DESIGN_PERSON_AND_ORGANIZATION_ASSIGNMENT ( #4, #221, ( #5 ) ) ;
#82 = DIRECTION ( 'NONE',  ( 0.000000000000000000, 0.000000000000000000, -1.000000000000000000 ) ) ;
#83 = LINE ( 'NONE', #111, #31 ) ;
#84 = AXIS2_PLACEMENT_3D ( 'NONE', #222, #109, #194 ) ;
#85 = DIRECTION ( 'NONE',  ( -1.000000000000000000, -0.000000000000000000, -0.000000000000000000 ) ) ;
#86 = UNCERTAINTY_MEASURE_WITH_UNIT (LENGTH_MEASURE( 1.000000000000000082E-05 ), #121, 'distance_accuracy_value', 'NONE');
#87 = ADVANCED_FACE ( 'NONE', ( #328 ), #97, .F. ) ;
#88 = DIRECTION ( 'NONE',  ( -1.000000000000000000, -0.000000000000000000, -0.000000000000000000 ) ) ;
#89 = APPROVAL_STATUS ( 'not_yet_approved' ) ;
#90 = ORIENTED_EDGE ( 'NONE', *, *, #154, .T. ) ;
#91 = CIRCLE ( 'NONE', #144, 3.000000000000000000 ) ;
#92 = CARTESIAN_POINT ( 'NONE',  ( -1.500000000000000000, 3.000000000000000000, 0.000000000000000000 ) ) ;
#93 = CARTESIAN_POINT ( 'NONE',  ( 0.5000000000000004441, 0.000000000000000000, 0.000000000000000000 ) ) ;
#94 = EDGE_LOOP ( 'NONE', ( #332, #239, #90, #116 ) ) ;
#95 = CARTESIAN_POINT ( 'NONE',  ( 1.500000000000000444, 3.673940397442059868E-16, -3.000000000000000000 ) ) ;
#96 = ORIENTED_EDGE ( 'NONE', *, *, #154, .F. ) ;
#97 = CYLINDRICAL_SURFACE ( 'NONE', #334, 3.000000000000000000 ) ;
#98 = ORGANIZATION ( 'UNSPECIFIED', 'UNSPECIFIED', '' ) ;
#99 = EDGE_LOOP ( 'NONE', ( #72, #73 ) ) ;
#100 = FACE_OUTER_BOUND ( 'NONE', #37, .T. ) ;
#101 = PRODUCT ( 'Q-DWWP-R24-12.7-1064-SH-M', 'Q-DWWP-R24-12.7-1064-SH-M', '', ( #145 ) ) ;
#102 = ADVANCED_FACE ( 'NONE', ( #174 ), #156, .F. ) ;
#103 = CIRCLE ( 'NONE', #78, 3.000000000000000000 ) ;
#104 = SECURITY_CLASSIFICATION_LEVEL ( 'unclassified' ) ;
#105 = ADVANCED_FACE ( 'NONE', ( #100 ), #29, .F. ) ;
#106 = APPLICATION_CONTEXT ( 'configuration controlled 3d designs of mechanical parts and assemblies' ) ;
#107 = DIRECTION ( 'NONE',  ( 0.000000000000000000, 0.000000000000000000, 1.000000000000000000 ) ) ;
#108 = AXIS2_PLACEMENT_3D ( 'NONE', #136, #85, #14 ) ;
#109 = DIRECTION ( 'NONE',  ( -1.000000000000000000, -0.000000000000000000, -0.000000000000000000 ) ) ;
#110 = ORIENTED_EDGE ( 'NONE', *, *, #76, .F. ) ;
#111 = CARTESIAN_POINT ( 'NONE',  ( -1.614212418857619014, 0.000000000000000000, 3.000000000000000000 ) ) ;
#112 = FACE_OUTER_BOUND ( 'NONE', #177, .T. ) ;
#113 = AXIS2_PLACEMENT_3D ( 'NONE', #61, #171, #280 ) ;
#114 = DIRECTION ( 'NONE',  ( -1.000000000000000000, 0.000000000000000000, -0.000000000000000000 ) ) ;
#115 = PERSON_AND_ORGANIZATION ( #203, #98 ) ;
#116 = ORIENTED_EDGE ( 'NONE', *, *, #75, .T. ) ;
#117 = DIRECTION ( 'NONE',  ( 0.000000000000000000, 0.000000000000000000, 1.000000000000000000 ) ) ;
#118 = PRODUCT_RELATED_PRODUCT_CATEGORY ( 'detail', '', ( #101 ) ) ;
#119 = DIRECTION ( 'NONE',  ( -1.000000000000000000, 0.000000000000000000, -0.000000000000000000 ) ) ;
#120 = VECTOR ( 'NONE', #169, 1000.000000000000000 ) ;
#121 =( LENGTH_UNIT ( ) NAMED_UNIT ( * ) SI_UNIT ( .MILLI., .METRE. ) );
#122 = LOCAL_TIME ( 16, 53, 38.00000000000000000, #6 ) ;
#123 = DIRECTION ( 'NONE',  ( -1.000000000000000000, -0.000000000000000000, -0.000000000000000000 ) ) ;
#124 = CARTESIAN_POINT ( 'NONE',  ( -0.5000000000000002220, 0.000000000000000000, 0.000000000000000000 ) ) ;
#125 = ORIENTED_EDGE ( 'NONE', *, *, #330, .F. ) ;
#126 = EDGE_LOOP ( 'NONE', ( #241, #27 ) ) ;
#127 = VERTEX_POINT ( 'NONE', #245 ) ;
#128 = EDGE_LOOP ( 'NONE', ( #313, #285, #290, #110 ) ) ;
#129 = CALENDAR_DATE ( 2020, 22, 12 ) ;
#130 = ADVANCED_FACE ( 'NONE', ( #59 ), #204, .T. ) ;
#131 = EDGE_CURVE ( 'NONE', #181, #196, #83, .T. ) ;
#132 = AXIS2_PLACEMENT_3D ( 'NONE', #36, #296, #60 ) ;
#133 = DATE_AND_TIME ( #319, #292 ) ;
#134 = DIRECTION ( 'NONE',  ( 0.000000000000000000, 0.000000000000000000, 1.000000000000000000 ) ) ;
#135 = PRODUCT_DEFINITION ( 'UNKNOWN', '', #5, #201 ) ;
#136 = CARTESIAN_POINT ( 'NONE',  ( 0.5000000000000004441, 0.000000000000000000, 0.000000000000000000 ) ) ;
#137 = AXIS2_PLACEMENT_3D ( 'NONE', #175, #45, #236 ) ;
#138 = EDGE_LOOP ( 'NONE', ( #217, #152 ) ) ;
#139 = CARTESIAN_POINT ( 'NONE',  ( 0.5000000000000004441, 3.673940397442059868E-16, -3.000000000000000000 ) ) ;
#140 = EDGE_CURVE ( 'NONE', #266, #51, #159, .T. ) ;
#141 = PLANE ( 'NONE',  #186 ) ;
#142 = APPROVAL ( #297, 'UNSPECIFIED' ) ;
#143 = CARTESIAN_POINT ( 'NONE',  ( 1.500000000000000000, 0.000000000000000000, 0.000000000000000000 ) ) ;
#144 = AXIS2_PLACEMENT_3D ( 'NONE', #306, #173, #18 ) ;
#145 = MECHANICAL_CONTEXT ( 'NONE', #333, 'mechanical' ) ;
#146 = DATE_AND_TIME ( #63, #311 ) ;
#147 = ORIENTED_EDGE ( 'NONE', *, *, #238, .T. ) ;
#148 = ORIENTED_EDGE ( 'NONE', *, *, #293, .T. ) ;
#149 = AXIS2_PLACEMENT_3D ( 'NONE', #143, #227, #107 ) ;
#150 = APPLICATION_PROTOCOL_DEFINITION ( 'international standard', 'config_control_design', 1994, #106 ) ;
#151 = CC_DESIGN_APPROVAL ( #74, ( #135 ) ) ;
#152 = ORIENTED_EDGE ( 'NONE', *, *, #76, .T. ) ;
#153 = LINE ( 'NONE', #240, #209 ) ;
#154 = EDGE_CURVE ( 'NONE', #312, #183, #38, .T. ) ;
#155 = ORIENTED_EDGE ( 'NONE', *, *, #50, .T. ) ;
#156 = CYLINDRICAL_SURFACE ( 'NONE', #137, 3.000000000000000000 ) ;
#157 = EDGE_LOOP ( 'NONE', ( #289, #269, #30, #70 ) ) ;
#158 = CARTESIAN_POINT ( 'NONE',  ( -0.5000000000000002220, 3.000000000000000000, 0.000000000000000000 ) ) ;
#159 = CIRCLE ( 'NONE', #149, 5.000000000000000000 ) ;
#160 = CC_DESIGN_PERSON_AND_ORGANIZATION_ASSIGNMENT ( #20, #233, ( #135 ) ) ;
#161 = EDGE_CURVE ( 'NONE', #309, #181, #23, .T. ) ;
#162 = CIRCLE ( 'NONE', #16, 5.000000000000000000 ) ;
#163 = CC_DESIGN_APPROVAL ( #215, ( #5 ) ) ;
#164 = COORDINATED_UNIVERSAL_TIME_OFFSET ( 8, 0, .AHEAD. ) ;
#165 = CARTESIAN_POINT ( 'NONE',  ( -1.614212418857619014, 0.000000000000000000, 0.000000000000000000 ) ) ;
#166 = CALENDAR_DATE ( 2020, 22, 12 ) ;
#167 = VERTEX_POINT ( 'NONE', #139 ) ;
#168 = CARTESIAN_POINT ( 'NONE',  ( 1.500000000000000222, 5.000000000000000000, 0.000000000000000000 ) ) ;
#169 = DIRECTION ( 'NONE',  ( -1.000000000000000000, -0.000000000000000000, -0.000000000000000000 ) ) ;
#170 = ADVANCED_FACE ( 'NONE', ( #323 ), #322, .F. ) ;
#171 = DIRECTION ( 'NONE',  ( -1.000000000000000000, -0.000000000000000000, -0.000000000000000000 ) ) ;
#172 = CARTESIAN_POINT ( 'NONE',  ( -0.5000000000000002220, 0.000000000000000000, 0.000000000000000000 ) ) ;
#173 = DIRECTION ( 'NONE',  ( -1.000000000000000000, -0.000000000000000000, -0.000000000000000000 ) ) ;
#174 = FACE_OUTER_BOUND ( 'NONE', #157, .T. ) ;
#175 = CARTESIAN_POINT ( 'NONE',  ( -1.614212418857619014, 0.000000000000000000, 0.000000000000000000 ) ) ;
#176 = CARTESIAN_POINT ( 'NONE',  ( 1.500000000000000000, 6.123233995736766282E-16, -5.000000000000000000 ) ) ;
#177 = EDGE_LOOP ( 'NONE', ( #216, #155, #58, #96 ) ) ;
#178 = ADVANCED_FACE ( 'NONE', ( #281, #255 ), #141, .F. ) ;
#179 = FACE_OUTER_BOUND ( 'NONE', #212, .T. ) ;
#180 = CIRCLE ( 'NONE', #108, 3.000000000000000000 ) ;
#181 = VERTEX_POINT ( 'NONE', #17 ) ;
#182 = EDGE_CURVE ( 'NONE', #54, #183, #286, .T. ) ;
#183 = VERTEX_POINT ( 'NONE', #278 ) ;
#184 = ORIENTED_EDGE ( 'NONE', *, *, #231, .T. ) ;
#185 = EDGE_LOOP ( 'NONE', ( #147, #225, #214, #282 ) ) ;
#186 = AXIS2_PLACEMENT_3D ( 'NONE', #168, #114, #318 ) ;
#187 = CC_DESIGN_SECURITY_CLASSIFICATION ( #190, ( #5 ) ) ;
#188 = APPROVAL_DATE_TIME ( #246, #215 ) ;
#189 = COORDINATED_UNIVERSAL_TIME_OFFSET ( 8, 0, .AHEAD. ) ;
#190 = SECURITY_CLASSIFICATION ( '', '', #104 ) ;
#191 = SHAPE_DEFINITION_REPRESENTATION ( #274, #329 ) ;
#192 = CC_DESIGN_PERSON_AND_ORGANIZATION_ASSIGNMENT ( #272, #195, ( #5 ) ) ;
#193 = CLOSED_SHELL ( 'NONE', ( #220, #237, #170, #105, #102, #87, #26, #130, #178, #3 ) ) ;
#194 = DIRECTION ( 'NONE',  ( 0.000000000000000000, 0.000000000000000000, 1.000000000000000000 ) ) ;
#195 = PERSON_AND_ORGANIZATION_ROLE ( 'design_supplier' ) ;
#196 = VERTEX_POINT ( 'NONE', #251 ) ;
#197 = DIRECTION ( 'NONE',  ( -1.000000000000000000, -0.000000000000000000, -0.000000000000000000 ) ) ;
#198 = DIRECTION ( 'NONE',  ( 1.000000000000000000, 0.000000000000000000, 0.000000000000000000 ) ) ;
#199 = EDGE_CURVE ( 'NONE', #68, #312, #103, .T. ) ;
#200 = EDGE_CURVE ( 'NONE', #127, #52, #162, .T. ) ;
#201 = DESIGN_CONTEXT ( 'detailed design', #106, 'design' ) ;
#202 = CYLINDRICAL_SURFACE ( 'NONE', #291, 5.000000000000000000 ) ;
#203 = PERSON ( 'UNSPECIFIED', 'UNSPECIFIED', 'UNSPECIFIED', ('UNSPECIFIED'), ('UNSPECIFIED'), ('UNSPECIFIED') ) ;
#204 = CYLINDRICAL_SURFACE ( 'NONE', #40, 5.000000000000000000 ) ;
#205 = APPROVAL_ROLE ( '' ) ;
#206 = CIRCLE ( 'NONE', #9, 5.000000000000000000 ) ;
#207 = CARTESIAN_POINT ( 'NONE',  ( -1.500000000000000000, 3.673940397442059868E-16, -3.000000000000000000 ) ) ;
#208 = DIRECTION ( 'NONE',  ( 0.000000000000000000, 0.000000000000000000, -1.000000000000000000 ) ) ;
#209 = VECTOR ( 'NONE', #314, 1000.000000000000000 ) ;
#210 = CARTESIAN_POINT ( 'NONE',  ( -1.614212418857619014, 3.673940397442059868E-16, -3.000000000000000000 ) ) ;
#211 = CARTESIAN_POINT ( 'NONE',  ( 0.000000000000000000, 0.000000000000000000, 0.000000000000000000 ) ) ;
#212 = EDGE_LOOP ( 'NONE', ( #12, #264 ) ) ;
#213 = DIRECTION ( 'NONE',  ( 0.000000000000000000, 0.000000000000000000, 1.000000000000000000 ) ) ;
#214 = ORIENTED_EDGE ( 'NONE', *, *, #200, .F. ) ;
#215 = APPROVAL ( #224, 'UNSPECIFIED' ) ;
#216 = ORIENTED_EDGE ( 'NONE', *, *, #300, .T. ) ;
#217 = ORIENTED_EDGE ( 'NONE', *, *, #200, .T. ) ;
#218 = FACE_OUTER_BOUND ( 'NONE', #138, .T. ) ;
#219 = EDGE_CURVE ( 'NONE', #51, #127, #299, .T. ) ;
#220 = ADVANCED_FACE ( 'NONE', ( #57 ), #202, .T. ) ;
#221 = PERSON_AND_ORGANIZATION_ROLE ( 'creator' ) ;
#222 = CARTESIAN_POINT ( 'NONE',  ( -1.614212418857619014, 0.000000000000000000, 0.000000000000000000 ) ) ;
#223 = APPROVAL_PERSON_ORGANIZATION ( #115, #74, #205 ) ;
#224 = APPROVAL_STATUS ( 'not_yet_approved' ) ;
#225 = ORIENTED_EDGE ( 'NONE', *, *, #228, .T. ) ;
#226 = CARTESIAN_POINT ( 'NONE',  ( -1.614212418857619014, 0.000000000000000000, 0.000000000000000000 ) ) ;
#227 = DIRECTION ( 'NONE',  ( -1.000000000000000000, -0.000000000000000000, -0.000000000000000000 ) ) ;
#228 = EDGE_CURVE ( 'NONE', #266, #52, #325, .T. ) ;
#229 = CYLINDRICAL_SURFACE ( 'NONE', #304, 3.000000000000000000 ) ;
#230 = DIRECTION ( 'NONE',  ( -1.000000000000000000, -0.000000000000000000, -0.000000000000000000 ) ) ;
#231 = EDGE_CURVE ( 'NONE', #167, #196, #180, .T. ) ;
#232 = CARTESIAN_POINT ( 'NONE',  ( -1.500000000000000000, 0.000000000000000000, 0.000000000000000000 ) ) ;
#233 = PERSON_AND_ORGANIZATION_ROLE ( 'creator' ) ;
#234 = VECTOR ( 'NONE', #88, 1000.000000000000000 ) ;
#235 = DIRECTION ( 'NONE',  ( 0.000000000000000000, 0.000000000000000000, 1.000000000000000000 ) ) ;
#236 = DIRECTION ( 'NONE',  ( 0.000000000000000000, 0.000000000000000000, 1.000000000000000000 ) ) ;
#237 = ADVANCED_FACE ( 'NONE', ( #112 ), #229, .F. ) ;
#238 = EDGE_CURVE ( 'NONE', #51, #266, #252, .T. ) ;
#239 = ORIENTED_EDGE ( 'NONE', *, *, #199, .T. ) ;
#240 = CARTESIAN_POINT ( 'NONE',  ( -1.614212418857619014, 3.673940397442059868E-16, -3.000000000000000000 ) ) ;
#241 = ORIENTED_EDGE ( 'NONE', *, *, #238, .F. ) ;
#242 = CIRCLE ( 'NONE', #317, 3.000000000000000000 ) ;
#243 = ORIENTED_EDGE ( 'NONE', *, *, #34, .T. ) ;
#244 = AXIS2_PLACEMENT_3D ( 'NONE', #92, #261, #69 ) ;
#245 = CARTESIAN_POINT ( 'NONE',  ( -1.500000000000000000, 0.000000000000000000, 5.000000000000000000 ) ) ;
#246 = DATE_AND_TIME ( #129, #335 ) ;
#247 = AXIS2_PLACEMENT_3D ( 'NONE', #302, #62, #134 ) ;
#248 = PERSON_AND_ORGANIZATION ( #203, #98 ) ;
#249 = DATE_AND_TIME ( #166, #324 ) ;
#250 = CARTESIAN_POINT ( 'NONE',  ( -1.614212418857619014, 0.000000000000000000, 0.000000000000000000 ) ) ;
#251 = CARTESIAN_POINT ( 'NONE',  ( 0.5000000000000004441, 0.000000000000000000, 3.000000000000000000 ) ) ;
#252 = CIRCLE ( 'NONE', #113, 5.000000000000000000 ) ;
#253 = DATE_TIME_ROLE ( 'classification_date' ) ;
#254 = CC_DESIGN_DATE_AND_TIME_ASSIGNMENT ( #249, #253, ( #190 ) ) ;
#255 = FACE_BOUND ( 'NONE', #15, .T. ) ;
#256 = CARTESIAN_POINT ( 'NONE',  ( -1.500000000000000000, 0.000000000000000000, 0.000000000000000000 ) ) ;
#257 = DIRECTION ( 'NONE',  ( -1.000000000000000000, -0.000000000000000000, -0.000000000000000000 ) ) ;
#258 = PERSON_AND_ORGANIZATION_ROLE ( 'design_owner' ) ;
#259 = MANIFOLD_SOLID_BREP ( 'Ðý×', #193 ) ;
#260 = APPROVAL_DATE_TIME ( #146, #74 ) ;
#261 = DIRECTION ( 'NONE',  ( 1.000000000000000000, 0.000000000000000000, 0.000000000000000000 ) ) ;
#262 =( NAMED_UNIT ( * ) SI_UNIT ( $, .STERADIAN. ) SOLID_ANGLE_UNIT ( ) );
#263 = AXIS2_PLACEMENT_3D ( 'NONE', #232, #287, #268 ) ;
#264 = ORIENTED_EDGE ( 'NONE', *, *, #199, .F. ) ;
#265 = DIRECTION ( 'NONE',  ( -1.000000000000000000, -0.000000000000000000, -0.000000000000000000 ) ) ;
#266 = VERTEX_POINT ( 'NONE', #176 ) ;
#267 = PLANE ( 'NONE',  #320 ) ;
#268 = DIRECTION ( 'NONE',  ( 0.000000000000000000, 0.000000000000000000, 1.000000000000000000 ) ) ;
#269 = ORIENTED_EDGE ( 'NONE', *, *, #293, .F. ) ;
#270 = PERSON_AND_ORGANIZATION_ROLE ( 'classification_officer' ) ;
#271 = CC_DESIGN_DATE_AND_TIME_ASSIGNMENT ( #133, #33, ( #135 ) ) ;
#272 = PERSON_AND_ORGANIZATION ( #203, #98 ) ;
#273 =( GEOMETRIC_REPRESENTATION_CONTEXT ( 3 ) GLOBAL_UNCERTAINTY_ASSIGNED_CONTEXT ( ( #86 ) ) GLOBAL_UNIT_ASSIGNED_CONTEXT ( ( #121, #25, #262 ) ) REPRESENTATION_CONTEXT ( 'NONE', 'WORKASPACE' ) );
#274 = PRODUCT_DEFINITION_SHAPE ( 'NONE', 'NONE',  #135 ) ;
#275 = PERSON_AND_ORGANIZATION ( #203, #98 ) ;
#276 = CARTESIAN_POINT ( 'NONE',  ( -1.614212418857619014, 6.123233995736766282E-16, -5.000000000000000000 ) ) ;
#277 = APPROVAL_DATE_TIME ( #77, #142 ) ;
#278 = CARTESIAN_POINT ( 'NONE',  ( -1.500000000000000000, 0.000000000000000000, 3.000000000000000000 ) ) ;
#279 = DIRECTION ( 'NONE',  ( 0.000000000000000000, 0.000000000000000000, 1.000000000000000000 ) ) ;
#280 = DIRECTION ( 'NONE',  ( 0.000000000000000000, 0.000000000000000000, 1.000000000000000000 ) ) ;
#281 = FACE_OUTER_BOUND ( 'NONE', #126, .T. ) ;
#282 = ORIENTED_EDGE ( 'NONE', *, *, #219, .F. ) ;
#283 = DIRECTION ( 'NONE',  ( 1.000000000000000000, 0.000000000000000000, 0.000000000000000000 ) ) ;
#284 = PERSON_AND_ORGANIZATION ( #203, #98 ) ;
#285 = ORIENTED_EDGE ( 'NONE', *, *, #140, .T. ) ;
#286 = CIRCLE ( 'NONE', #132, 3.000000000000000000 ) ;
#287 = DIRECTION ( 'NONE',  ( -1.000000000000000000, -0.000000000000000000, -0.000000000000000000 ) ) ;
#288 = PLANE ( 'NONE',  #244 ) ;
#289 = ORIENTED_EDGE ( 'NONE', *, *, #34, .F. ) ;
#290 = ORIENTED_EDGE ( 'NONE', *, *, #219, .T. ) ;
#291 = AXIS2_PLACEMENT_3D ( 'NONE', #165, #230, #279 ) ;
#292 = LOCAL_TIME ( 16, 53, 38.00000000000000000, #80 ) ;
#293 = EDGE_CURVE ( 'NONE', #181, #309, #91, .T. ) ;
#294 = DIRECTION ( 'NONE',  ( -0.000000000000000000, 0.000000000000000000, 1.000000000000000000 ) ) ;
#295 = CIRCLE ( 'NONE', #263, 3.000000000000000000 ) ;
#296 = DIRECTION ( 'NONE',  ( -1.000000000000000000, -0.000000000000000000, -0.000000000000000000 ) ) ;
#297 = APPROVAL_STATUS ( 'not_yet_approved' ) ;
#298 = CARTESIAN_POINT ( 'NONE',  ( -1.614212418857619014, 0.000000000000000000, 3.000000000000000000 ) ) ;
#299 = LINE ( 'NONE', #321, #120 ) ;
#300 = EDGE_CURVE ( 'NONE', #312, #68, #242, .T. ) ;
#301 = DIRECTION ( 'NONE',  ( -1.000000000000000000, -0.000000000000000000, -0.000000000000000000 ) ) ;
#302 = CARTESIAN_POINT ( 'NONE',  ( 1.500000000000000444, 0.000000000000000000, 0.000000000000000000 ) ) ;
#303 = COORDINATED_UNIVERSAL_TIME_OFFSET ( 8, 0, .AHEAD. ) ;
#304 = AXIS2_PLACEMENT_3D ( 'NONE', #226, #301, #39 ) ;
#305 = CARTESIAN_POINT ( 'NONE',  ( -1.500000000000000000, 0.000000000000000000, 0.000000000000000000 ) ) ;
#306 = CARTESIAN_POINT ( 'NONE',  ( 1.500000000000000444, 0.000000000000000000, 0.000000000000000000 ) ) ;
#307 = CARTESIAN_POINT ( 'NONE',  ( 1.500000000000000000, 0.000000000000000000, 5.000000000000000000 ) ) ;
#308 = DIRECTION ( 'NONE',  ( 0.000000000000000000, 0.000000000000000000, -1.000000000000000000 ) ) ;
#309 = VERTEX_POINT ( 'NONE', #95 ) ;
#310 = CIRCLE ( 'NONE', #315, 3.000000000000000000 ) ;
#311 = LOCAL_TIME ( 16, 53, 38.00000000000000000, #303 ) ;
#312 = VERTEX_POINT ( 'NONE', #66 ) ;
#313 = ORIENTED_EDGE ( 'NONE', *, *, #228, .F. ) ;
#314 = DIRECTION ( 'NONE',  ( -1.000000000000000000, -0.000000000000000000, -0.000000000000000000 ) ) ;
#315 = AXIS2_PLACEMENT_3D ( 'NONE', #93, #265, #213 ) ;
#316 = APPROVAL_ROLE ( '' ) ;
#317 = AXIS2_PLACEMENT_3D ( 'NONE', #124, #47, #208 ) ;
#318 = DIRECTION ( 'NONE',  ( -0.000000000000000000, 0.000000000000000000, 1.000000000000000000 ) ) ;
#319 = CALENDAR_DATE ( 2020, 22, 12 ) ;
#320 = AXIS2_PLACEMENT_3D ( 'NONE', #158, #283, #308 ) ;
#321 = CARTESIAN_POINT ( 'NONE',  ( -1.614212418857619014, 0.000000000000000000, 5.000000000000000000 ) ) ;
#322 = CYLINDRICAL_SURFACE ( 'NONE', #84, 3.000000000000000000 ) ;
#323 = FACE_OUTER_BOUND ( 'NONE', #28, .T. ) ;
#324 = LOCAL_TIME ( 16, 53, 38.00000000000000000, #189 ) ;
#325 = LINE ( 'NONE', #276, #234 ) ;
#326 = CC_DESIGN_PERSON_AND_ORGANIZATION_ASSIGNMENT ( #248, #270, ( #190 ) ) ;
#327 = ORIENTED_EDGE ( 'NONE', *, *, #161, .T. ) ;
#328 = FACE_OUTER_BOUND ( 'NONE', #94, .T. ) ;
#329 = ADVANCED_BREP_SHAPE_REPRESENTATION ( 'Q-DWWP-R24-12.7-1064-SH-M', ( #259, #10 ), #273 ) ;
#330 = EDGE_CURVE ( 'NONE', #196, #167, #310, .T. ) ;
#331 = CARTESIAN_POINT ( 'NONE',  ( -1.500000000000000000, 6.123233995736766282E-16, -5.000000000000000000 ) ) ;
#332 = ORIENTED_EDGE ( 'NONE', *, *, #50, .F. ) ;
#333 = APPLICATION_CONTEXT ( 'configuration controlled 3d designs of mechanical parts and assemblies' ) ;
#334 = AXIS2_PLACEMENT_3D ( 'NONE', #65, #2, #235 ) ;
#335 = LOCAL_TIME ( 16, 53, 38.00000000000000000, #164 ) ;
ENDSEC;
END-ISO-10303-21;
